ISO-10303-21;
HEADER;
FILE_DESCRIPTION (( 'STEP AP203' ),
    '1' );
FILE_NAME ('Q-OZHWP-R2-25.4-795-M.STEP',
    '2020-12-22T09:19:41',
    ( '' ),
    ( '' ),
    'SwSTEP 2.0',
    'SolidWorks 2020',
    '' );
FILE_SCHEMA (( 'CONFIG_CONTROL_DESIGN' ));
ENDSEC;

DATA;
#1 = APPROVAL_STATUS ( 'not_yet_approved' ) ;
#2 = VECTOR ( 'NONE', #103, 1000.000000000000000 ) ;
#3 = APPROVAL_STATUS ( 'not_yet_approved' ) ;
#4 = APPROVAL_ROLE ( '' ) ;
#5 = VERTEX_POINT ( 'NONE', #96 ) ;
#6 = CARTESIAN_POINT ( 'NONE',  ( -3.000000000000000000, 1.555301434917138433E-15, -12.69999999999999929 ) ) ;
#7 = EDGE_CURVE ( 'NONE', #58, #5, #22, .T. ) ;
#8 = VECTOR ( 'NONE', #155, 1000.000000000000000 ) ;
#9 = COORDINATED_UNIVERSAL_TIME_OFFSET ( 8, 0, .AHEAD. ) ;
#10 =( NAMED_UNIT ( * ) SI_UNIT ( $, .STERADIAN. ) SOLID_ANGLE_UNIT ( ) );
#11 = APPROVAL ( #157, 'UNSPECIFIED' ) ;
#12 = AXIS2_PLACEMENT_3D ( 'NONE', #34, #167, #57 ) ;
#13 = CALENDAR_DATE ( 2020, 22, 12 ) ;
#14 = APPROVAL_ROLE ( '' ) ;
#15 = CC_DESIGN_PERSON_AND_ORGANIZATION_ASSIGNMENT ( #93, #90, ( #85 ) ) ;
#16 = DATE_AND_TIME ( #13, #162 ) ;
#17 = CC_DESIGN_SECURITY_CLASSIFICATION ( #129, ( #85 ) ) ;
#18 = APPROVAL_PERSON_ORGANIZATION ( #68, #92, #14 ) ;
#19 = EDGE_LOOP ( 'NONE', ( #56, #135, #139, #80 ) ) ;
#20 = DIRECTION ( 'NONE',  ( 0.000000000000000000, 0.000000000000000000, 1.000000000000000000 ) ) ;
#21 = ORIENTED_EDGE ( 'NONE', *, *, #40, .F. ) ;
#22 = CIRCLE ( 'NONE', #12, 12.69999999999999929 ) ;
#23 = DIRECTION ( 'NONE',  ( 1.000000000000000000, 0.000000000000000000, 0.000000000000000000 ) ) ;
#24 = MECHANICAL_CONTEXT ( 'NONE', #61, 'mechanical' ) ;
#25 = DIRECTION ( 'NONE',  ( 0.000000000000000000, 0.000000000000000000, 1.000000000000000000 ) ) ;
#26 = DIRECTION ( 'NONE',  ( -1.000000000000000000, -0.000000000000000000, -0.000000000000000000 ) ) ;
#27 = PERSON_AND_ORGANIZATION ( #29, #30 ) ;
#28 = EDGE_CURVE ( 'NONE', #81, #137, #170, .T. ) ;
#29 = PERSON ( 'UNSPECIFIED', 'UNSPECIFIED', 'UNSPECIFIED', ('UNSPECIFIED'), ('UNSPECIFIED'), ('UNSPECIFIED') ) ;
#30 = ORGANIZATION ( 'UNSPECIFIED', 'UNSPECIFIED', '' ) ;
#31 = AXIS2_PLACEMENT_3D ( 'NONE', #83, #140, #147 ) ;
#32 = ORIENTED_EDGE ( 'NONE', *, *, #152, .F. ) ;
#33 = LOCAL_TIME ( 17, 19, 41.00000000000000000, #54 ) ;
#34 = CARTESIAN_POINT ( 'NONE',  ( -3.000000000000001776, 0.000000000000000000, 0.000000000000000000 ) ) ;
#35 = CARTESIAN_POINT ( 'NONE',  ( -3.000000000000000000, 0.000000000000000000, 0.000000000000000000 ) ) ;
#36 = AXIS2_PLACEMENT_3D ( 'NONE', #49, #23, #111 ) ;
#37 = CARTESIAN_POINT ( 'NONE',  ( 3.000000000000001776, 1.555301434917138433E-15, -12.69999999999999929 ) ) ;
#38 = CARTESIAN_POINT ( 'NONE',  ( 3.000000000000001776, 0.000000000000000000, 12.69999999999999929 ) ) ;
#39 = PERSON_AND_ORGANIZATION ( #29, #30 ) ;
#40 = EDGE_CURVE ( 'NONE', #137, #5, #72, .T. ) ;
#41 = CC_DESIGN_APPROVAL ( #92, ( #129 ) ) ;
#42 = APPROVAL_DATE_TIME ( #16, #161 ) ;
#43 = DATE_TIME_ROLE ( 'creation_date' ) ;
#44 = CIRCLE ( 'NONE', #146, 12.69999999999999929 ) ;
#45 = DIRECTION ( 'NONE',  ( 0.000000000000000000, 0.000000000000000000, 1.000000000000000000 ) ) ;
#46 = DIRECTION ( 'NONE',  ( -1.000000000000000000, -0.000000000000000000, -0.000000000000000000 ) ) ;
#47 = ADVANCED_FACE ( 'NONE', ( #108 ), #120, .T. ) ;
#48 = APPLICATION_PROTOCOL_DEFINITION ( 'international standard', 'config_control_design', 1994, #61 ) ;
#49 = CARTESIAN_POINT ( 'NONE',  ( -3.000000000000000888, 12.69999999999999929, 0.000000000000000000 ) ) ;
#50 = CARTESIAN_POINT ( 'NONE',  ( 3.000000000000000888, 12.69999999999999929, 0.000000000000000000 ) ) ;
#51 = AXIS2_PLACEMENT_3D ( 'NONE', #126, #26, #25 ) ;
#52 = CARTESIAN_POINT ( 'NONE',  ( -3.000000000000000000, 0.000000000000000000, 12.69999999999999929 ) ) ;
#53 = CC_DESIGN_DATE_AND_TIME_ASSIGNMENT ( #65, #130, ( #129 ) ) ;
#54 = COORDINATED_UNIVERSAL_TIME_OFFSET ( 8, 0, .AHEAD. ) ;
#55 = EDGE_CURVE ( 'NONE', #137, #81, #64, .T. ) ;
#56 = ORIENTED_EDGE ( 'NONE', *, *, #28, .T. ) ;
#57 = DIRECTION ( 'NONE',  ( 0.000000000000000000, 0.000000000000000000, 1.000000000000000000 ) ) ;
#58 = VERTEX_POINT ( 'NONE', #87 ) ;
#59 = ORIENTED_EDGE ( 'NONE', *, *, #55, .F. ) ;
#60 = PERSON_AND_ORGANIZATION ( #29, #30 ) ;
#61 = APPLICATION_CONTEXT ( 'configuration controlled 3d designs of mechanical parts and assemblies' ) ;
#62 = PLANE ( 'NONE',  #36 ) ;
#63 = PRODUCT_RELATED_PRODUCT_CATEGORY ( 'detail', '', ( #134 ) ) ;
#64 = CIRCLE ( 'NONE', #31, 12.69999999999999929 ) ;
#65 = DATE_AND_TIME ( #79, #165 ) ;
#66 = CC_DESIGN_APPROVAL ( #11, ( #115 ) ) ;
#67 = ADVANCED_BREP_SHAPE_REPRESENTATION ( 'Q-OZHWP-R2-25.4-795-M', ( #106, #112 ), #100 ) ;
#68 = PERSON_AND_ORGANIZATION ( #29, #30 ) ;
#69 = APPROVAL_DATE_TIME ( #70, #92 ) ;
#70 = DATE_AND_TIME ( #76, #33 ) ;
#71 = CLOSED_SHELL ( 'NONE', ( #164, #47, #173, #101 ) ) ;
#72 = LINE ( 'NONE', #6, #8 ) ;
#73 = CARTESIAN_POINT ( 'NONE',  ( -3.000000000000001776, 0.000000000000000000, 0.000000000000000000 ) ) ;
#74 = CALENDAR_DATE ( 2020, 22, 12 ) ;
#75 = PLANE ( 'NONE',  #132 ) ;
#76 = CALENDAR_DATE ( 2020, 22, 12 ) ;
#77 = SECURITY_CLASSIFICATION_LEVEL ( 'unclassified' ) ;
#78 = APPROVAL_DATE_TIME ( #148, #11 ) ;
#79 = CALENDAR_DATE ( 2020, 22, 12 ) ;
#80 = ORIENTED_EDGE ( 'NONE', *, *, #123, .F. ) ;
#81 = VERTEX_POINT ( 'NONE', #38 ) ;
#82 = APPROVAL_PERSON_ORGANIZATION ( #86, #11, #144 ) ;
#83 = CARTESIAN_POINT ( 'NONE',  ( 3.000000000000001776, 0.000000000000000000, 0.000000000000000000 ) ) ;
#84 = DIRECTION ( 'NONE',  ( -1.000000000000000000, -0.000000000000000000, -0.000000000000000000 ) ) ;
#85 = PRODUCT_DEFINITION_FORMATION_WITH_SPECIFIED_SOURCE ( 'ANY', '', #134, .NOT_KNOWN. ) ;
#86 = PERSON_AND_ORGANIZATION ( #29, #30 ) ;
#87 = CARTESIAN_POINT ( 'NONE',  ( -3.000000000000001776, 0.000000000000000000, 12.69999999999999929 ) ) ;
#88 = DIRECTION ( 'NONE',  ( 1.000000000000000000, 0.000000000000000000, 0.000000000000000000 ) ) ;
#89 = COORDINATED_UNIVERSAL_TIME_OFFSET ( 8, 0, .AHEAD. ) ;
#90 = PERSON_AND_ORGANIZATION_ROLE ( 'design_supplier' ) ;
#91 = PERSON_AND_ORGANIZATION_ROLE ( 'classification_officer' ) ;
#92 = APPROVAL ( #1, 'UNSPECIFIED' ) ;
#93 = PERSON_AND_ORGANIZATION ( #29, #30 ) ;
#94 = ORIENTED_EDGE ( 'NONE', *, *, #152, .T. ) ;
#95 = ORIENTED_EDGE ( 'NONE', *, *, #7, .T. ) ;
#96 = CARTESIAN_POINT ( 'NONE',  ( -3.000000000000001776, 1.555301434917138433E-15, -12.69999999999999929 ) ) ;
#97 = UNCERTAINTY_MEASURE_WITH_UNIT (LENGTH_MEASURE( 1.000000000000000082E-05 ), #174, 'distance_accuracy_value', 'NONE');
#98 = PRODUCT_DEFINITION_SHAPE ( 'NONE', 'NONE',  #115 ) ;
#99 = CC_DESIGN_PERSON_AND_ORGANIZATION_ASSIGNMENT ( #39, #150, ( #85 ) ) ;
#100 =( GEOMETRIC_REPRESENTATION_CONTEXT ( 3 ) GLOBAL_UNCERTAINTY_ASSIGNED_CONTEXT ( ( #97 ) ) GLOBAL_UNIT_ASSIGNED_CONTEXT ( ( #174, #124, #10 ) ) REPRESENTATION_CONTEXT ( 'NONE', 'WORKASPACE' ) );
#101 = ADVANCED_FACE ( 'NONE', ( #175 ), #62, .F. ) ;
#102 = CARTESIAN_POINT ( 'NONE',  ( 0.000000000000000000, 0.000000000000000000, 0.000000000000000000 ) ) ;
#103 = DIRECTION ( 'NONE',  ( -1.000000000000000000, -0.000000000000000000, -0.000000000000000000 ) ) ;
#104 = DATE_AND_TIME ( #151, #133 ) ;
#105 = APPLICATION_CONTEXT ( 'configuration controlled 3d designs of mechanical parts and assemblies' ) ;
#106 = MANIFOLD_SOLID_BREP ( 'Ðý×', #71 ) ;
#107 = PERSON_AND_ORGANIZATION ( #29, #30 ) ;
#108 = FACE_OUTER_BOUND ( 'NONE', #166, .T. ) ;
#109 = ORIENTED_EDGE ( 'NONE', *, *, #55, .T. ) ;
#110 = DIRECTION ( 'NONE',  ( -1.000000000000000000, 0.000000000000000000, -0.000000000000000000 ) ) ;
#111 = DIRECTION ( 'NONE',  ( 0.000000000000000000, 0.000000000000000000, -1.000000000000000000 ) ) ;
#112 = AXIS2_PLACEMENT_3D ( 'NONE', #102, #156, #88 ) ;
#113 = FACE_OUTER_BOUND ( 'NONE', #19, .T. ) ;
#114 = PERSON_AND_ORGANIZATION_ROLE ( 'creator' ) ;
#115 = PRODUCT_DEFINITION ( 'UNKNOWN', '', #85, #160 ) ;
#116 = AXIS2_PLACEMENT_3D ( 'NONE', #35, #168, #45 ) ;
#117 = PERSON_AND_ORGANIZATION ( #29, #30 ) ;
#118 = CC_DESIGN_PERSON_AND_ORGANIZATION_ASSIGNMENT ( #117, #91, ( #129 ) ) ;
#119 = ORIENTED_EDGE ( 'NONE', *, *, #123, .T. ) ;
#120 = CYLINDRICAL_SURFACE ( 'NONE', #116, 12.69999999999999929 ) ;
#121 = APPROVAL_PERSON_ORGANIZATION ( #107, #161, #4 ) ;
#122 = CYLINDRICAL_SURFACE ( 'NONE', #51, 12.69999999999999929 ) ;
#123 = EDGE_CURVE ( 'NONE', #81, #58, #145, .T. ) ;
#124 =( NAMED_UNIT ( * ) PLANE_ANGLE_UNIT ( ) SI_UNIT ( $, .RADIAN. ) );
#125 = PERSON_AND_ORGANIZATION_ROLE ( 'design_owner' ) ;
#126 = CARTESIAN_POINT ( 'NONE',  ( -3.000000000000000000, 0.000000000000000000, 0.000000000000000000 ) ) ;
#127 = CC_DESIGN_PERSON_AND_ORGANIZATION_ASSIGNMENT ( #27, #114, ( #115 ) ) ;
#128 = AXIS2_PLACEMENT_3D ( 'NONE', #153, #46, #20 ) ;
#129 = SECURITY_CLASSIFICATION ( '', '', #77 ) ;
#130 = DATE_TIME_ROLE ( 'classification_date' ) ;
#131 = COORDINATED_UNIVERSAL_TIME_OFFSET ( 8, 0, .AHEAD. ) ;
#132 = AXIS2_PLACEMENT_3D ( 'NONE', #50, #110, #171 ) ;
#133 = LOCAL_TIME ( 17, 19, 41.00000000000000000, #131 ) ;
#134 = PRODUCT ( 'Q-OZHWP-R2-25.4-795-M', 'Q-OZHWP-R2-25.4-795-M', '', ( #24 ) ) ;
#135 = ORIENTED_EDGE ( 'NONE', *, *, #40, .T. ) ;
#136 = EDGE_LOOP ( 'NONE', ( #95, #94 ) ) ;
#137 = VERTEX_POINT ( 'NONE', #37 ) ;
#138 = CC_DESIGN_DATE_AND_TIME_ASSIGNMENT ( #104, #43, ( #115 ) ) ;
#139 = ORIENTED_EDGE ( 'NONE', *, *, #7, .F. ) ;
#140 = DIRECTION ( 'NONE',  ( -1.000000000000000000, -0.000000000000000000, -0.000000000000000000 ) ) ;
#141 = DIRECTION ( 'NONE',  ( 0.000000000000000000, 0.000000000000000000, 1.000000000000000000 ) ) ;
#142 = CC_DESIGN_PERSON_AND_ORGANIZATION_ASSIGNMENT ( #60, #125, ( #134 ) ) ;
#143 = APPLICATION_PROTOCOL_DEFINITION ( 'international standard', 'config_control_design', 1994, #105 ) ;
#144 = APPROVAL_ROLE ( '' ) ;
#145 = LINE ( 'NONE', #52, #2 ) ;
#146 = AXIS2_PLACEMENT_3D ( 'NONE', #73, #84, #141 ) ;
#147 = DIRECTION ( 'NONE',  ( 0.000000000000000000, 0.000000000000000000, 1.000000000000000000 ) ) ;
#148 = DATE_AND_TIME ( #74, #159 ) ;
#149 = SHAPE_DEFINITION_REPRESENTATION ( #98, #67 ) ;
#150 = PERSON_AND_ORGANIZATION_ROLE ( 'creator' ) ;
#151 = CALENDAR_DATE ( 2020, 22, 12 ) ;
#152 = EDGE_CURVE ( 'NONE', #5, #58, #44, .T. ) ;
#153 = CARTESIAN_POINT ( 'NONE',  ( 3.000000000000001776, 0.000000000000000000, 0.000000000000000000 ) ) ;
#154 = ORIENTED_EDGE ( 'NONE', *, *, #28, .F. ) ;
#155 = DIRECTION ( 'NONE',  ( -1.000000000000000000, -0.000000000000000000, -0.000000000000000000 ) ) ;
#156 = DIRECTION ( 'NONE',  ( 0.000000000000000000, 0.000000000000000000, 1.000000000000000000 ) ) ;
#157 = APPROVAL_STATUS ( 'not_yet_approved' ) ;
#158 = FACE_OUTER_BOUND ( 'NONE', #169, .T. ) ;
#159 = LOCAL_TIME ( 17, 19, 41.00000000000000000, #9 ) ;
#160 = DESIGN_CONTEXT ( 'detailed design', #105, 'design' ) ;
#161 = APPROVAL ( #3, 'UNSPECIFIED' ) ;
#162 = LOCAL_TIME ( 17, 19, 41.00000000000000000, #163 ) ;
#163 = COORDINATED_UNIVERSAL_TIME_OFFSET ( 8, 0, .AHEAD. ) ;
#164 = ADVANCED_FACE ( 'NONE', ( #113 ), #122, .T. ) ;
#165 = LOCAL_TIME ( 17, 19, 41.00000000000000000, #89 ) ;
#166 = EDGE_LOOP ( 'NONE', ( #21, #109, #119, #32 ) ) ;
#167 = DIRECTION ( 'NONE',  ( -1.000000000000000000, -0.000000000000000000, -0.000000000000000000 ) ) ;
#168 = DIRECTION ( 'NONE',  ( -1.000000000000000000, -0.000000000000000000, -0.000000000000000000 ) ) ;
#169 = EDGE_LOOP ( 'NONE', ( #154, #59 ) ) ;
#170 = CIRCLE ( 'NONE', #128, 12.69999999999999929 ) ;
#171 = DIRECTION ( 'NONE',  ( -0.000000000000000000, 0.000000000000000000, 1.000000000000000000 ) ) ;
#172 = CC_DESIGN_APPROVAL ( #161, ( #85 ) ) ;
#173 = ADVANCED_FACE ( 'NONE', ( #158 ), #75, .F. ) ;
#174 =( LENGTH_UNIT ( ) NAMED_UNIT ( * ) SI_UNIT ( .MILLI., .METRE. ) );
#175 = FACE_OUTER_BOUND ( 'NONE', #136, .T. ) ;
ENDSEC;
END-ISO-10303-21;
